  0
SECTION
  2
HEADER
  9
$ACADVER
  1
AC1015
  9
$ACADMAINTVER
 70
    20
  9
$DWGCODEPAGE
  3
ANSI_1252
  9
$INSBASE
 10
-20.20000000000004
 20
325.3
 30
0.0
  9
$EXTMIN
 10
-0.025633200973175
 20
-0.0140994713160581
 30
-0.0000000349181948
  9
$EXTMAX
 10
79.92523134228463
 20
82.80705259518242
 30
0.0000000814935746
  9
$LIMMIN
 10
0.0
 20
0.0
  9
$LIMMAX
 10
420.0
 20
297.0
  9
$ORTHOMODE
 70
     0
  9
$REGENMODE
 70
     1
  9
$FILLMODE
 70
     1
  9
$QTEXTMODE
 70
     0
  9
$MIRRTEXT
 70
     1
  9
$LTSCALE
 40
0.2
  9
$ATTMODE
 70
     1
  9
$TEXTSIZE
 40
5.0
  9
$TRACEWID
 40
1.0
  9
$TEXTSTYLE
  7
Standard
  9
$CLAYER
  8
0
  9
$CELTYPE
  6
ByLayer
  9
$CECOLOR
 62
   256
  9
$CELTSCALE
 40
1.0
  9
$DISPSILH
 70
     0
  9
$DIMSCALE
 40
1.0
  9
$DIMASZ
 40
2.5
  9
$DIMEXO
 40
0.625
  9
$DIMDLI
 40
3.75
  9
$DIMRND
 40
0.0
  9
$DIMDLE
 40
0.0
  9
$DIMEXE
 40
1.25
  9
$DIMTP
 40
0.0
  9
$DIMTM
 40
0.0
  9
$DIMTXT
 40
2.5
  9
$DIMCEN
 40
2.5
  9
$DIMTSZ
 40
0.0
  9
$DIMTOL
 70
     0
  9
$DIMLIM
 70
     0
  9
$DIMTIH
 70
     0
  9
$DIMTOH
 70
     0
  9
$DIMSE1
 70
     0
  9
$DIMSE2
 70
     0
  9
$DIMTAD
 70
     1
  9
$DIMZIN
 70
     8
  9
$DIMBLK
  1

  9
$DIMASO
 70
     1
  9
$DIMSHO
 70
     1
  9
$DIMPOST
  1

  9
$DIMAPOST
  1

  9
$DIMALT
 70
     0
  9
$DIMALTD
 70
     3
  9
$DIMALTF
 40
0.03937007874016
  9
$DIMLFAC
 40
1.0
  9
$DIMTOFL
 70
     1
  9
$DIMTVP
 40
0.0
  9
$DIMTIX
 70
     0
  9
$DIMSOXD
 70
     0
  9
$DIMSAH
 70
     0
  9
$DIMBLK1
  1

  9
$DIMBLK2
  1

  9
$DIMSTYLE
  2
ISO-25
  9
$DIMCLRD
 70
     0
  9
$DIMCLRE
 70
     0
  9
$DIMCLRT
 70
     0
  9
$DIMTFAC
 40
1.0
  9
$DIMGAP
 40
0.625
  9
$DIMJUST
 70
     0
  9
$DIMSD1
 70
     0
  9
$DIMSD2
 70
     0
  9
$DIMTOLJ
 70
     0
  9
$DIMTZIN
 70
     8
  9
$DIMALTZ
 70
     0
  9
$DIMALTTZ
 70
     0
  9
$DIMUPT
 70
     0
  9
$DIMDEC
 70
     2
  9
$DIMTDEC
 70
     2
  9
$DIMALTU
 70
     2
  9
$DIMALTTD
 70
     3
  9
$DIMTXSTY
  7
Standard
  9
$DIMAUNIT
 70
     0
  9
$DIMADEC
 70
     0
  9
$DIMALTRND
 40
0.0
  9
$DIMAZIN
 70
     0
  9
$DIMDSEP
 70
    44
  9
$DIMATFIT
 70
     3
  9
$DIMFRAC
 70
     0
  9
$DIMLDRBLK
  1

  9
$DIMLUNIT
 70
     2
  9
$DIMLWD
 70
    -2
  9
$DIMLWE
 70
    -2
  9
$DIMTMOVE
 70
     0
  9
$LUNITS
 70
     2
  9
$LUPREC
 70
     2
  9
$SKETCHINC
 40
1.0
  9
$FILLETRAD
 40
0.0
  9
$AUNITS
 70
     0
  9
$AUPREC
 70
     0
  9
$MENU
  1
.
  9
$ELEVATION
 40
0.0
  9
$PELEVATION
 40
0.0
  9
$THICKNESS
 40
0.0
  9
$LIMCHECK
 70
     0
  9
$CHAMFERA
 40
0.0
  9
$CHAMFERB
 40
0.0
  9
$CHAMFERC
 40
20.0
  9
$CHAMFERD
 40
0.0
  9
$SKPOLY
 70
     0
  9
$TDCREATE
 40
2451925.550656829
  9
$TDUCREATE
 40
2451925.467323496
  9
$TDUPDATE
 40
2454035.916806817
  9
$TDUUPDATE
 40
2454035.833473484
  9
$TDINDWG
 40
10.2524276389
  9
$TDUSRTIMER
 40
10.2524098148
  9
$USRTIMER
 70
     1
  9
$ANGBASE
 50
0.0
  9
$ANGDIR
 70
     0
  9
$PDMODE
 70
     0
  9
$PDSIZE
 40
0.0
  9
$PLINEWID
 40
0.0
  9
$SPLFRAME
 70
     0
  9
$SPLINETYPE
 70
     6
  9
$SPLINESEGS
 70
     8
  9
$HANDSEED
  5
2E7
  9
$SURFTAB1
 70
     6
  9
$SURFTAB2
 70
     6
  9
$SURFTYPE
 70
     6
  9
$SURFU
 70
     6
  9
$SURFV
 70
     6
  9
$UCSBASE
  2

  9
$UCSNAME
  2

  9
$UCSORG
 10
0.0
 20
0.0
 30
0.0
  9
$UCSXDIR
 10
1.0
 20
0.0
 30
0.0
  9
$UCSYDIR
 10
0.0
 20
1.0
 30
0.0
  9
$UCSORTHOREF
  2

  9
$UCSORTHOVIEW
 70
     0
  9
$UCSORGTOP
 10
0.0
 20
0.0
 30
0.0
  9
$UCSORGBOTTOM
 10
0.0
 20
0.0
 30
0.0
  9
$UCSORGLEFT
 10
0.0
 20
0.0
 30
0.0
  9
$UCSORGRIGHT
 10
0.0
 20
0.0
 30
0.0
  9
$UCSORGFRONT
 10
0.0
 20
0.0
 30
0.0
  9
$UCSORGBACK
 10
0.0
 20
0.0
 30
0.0
  9
$PUCSBASE
  2

  9
$PUCSNAME
  2

  9
$PUCSORG
 10
0.0
 20
0.0
 30
0.0
  9
$PUCSXDIR
 10
1.0
 20
0.0
 30
0.0
  9
$PUCSYDIR
 10
0.0
 20
1.0
 30
0.0
  9
$PUCSORTHOREF
  2

  9
$PUCSORTHOVIEW
 70
     0
  9
$PUCSORGTOP
 10
0.0
 20
0.0
 30
0.0
  9
$PUCSORGBOTTOM
 10
0.0
 20
0.0
 30
0.0
  9
$PUCSORGLEFT
 10
0.0
 20
0.0
 30
0.0
  9
$PUCSORGRIGHT
 10
0.0
 20
0.0
 30
0.0
  9
$PUCSORGFRONT
 10
0.0
 20
0.0
 30
0.0
  9
$PUCSORGBACK
 10
0.0
 20
0.0
 30
0.0
  9
$USERI1
 70
     0
  9
$USERI2
 70
     0
  9
$USERI3
 70
     0
  9
$USERI4
 70
     0
  9
$USERI5
 70
     0
  9
$USERR1
 40
0.0
  9
$USERR2
 40
0.0
  9
$USERR3
 40
0.0
  9
$USERR4
 40
0.0
  9
$USERR5
 40
0.0
  9
$WORLDVIEW
 70
     1
  9
$SHADEDGE
 70
     3
  9
$SHADEDIF
 70
    70
  9
$TILEMODE
 70
     1
  9
$MAXACTVP
 70
    64
  9
$PINSBASE
 10
0.0
 20
0.0
 30
0.0
  9
$PLIMCHECK
 70
     0
  9
$PEXTMIN
 10
28.68718404769897
 20
19.80565085411072
 30
0.0
  9
$PEXTMAX
 10
258.1846564292908
 20
178.2508576869964
 30
0.0
  9
$PLIMMIN
 10
-5.027069091796875
 20
-6.297083377838134
  9
$PLIMMAX
 10
291.89892578125
 20
203.7609152793884
  9
$UNITMODE
 70
     0
  9
$VISRETAIN
 70
     1
  9
$PLINEGEN
 70
     0
  9
$PSLTSCALE
 70
     1
  9
$TREEDEPTH
 70
  3020
  9
$CMLSTYLE
  2
Standard
  9
$CMLJUST
 70
     0
  9
$CMLSCALE
 40
20.0
  9
$PROXYGRAPHICS
 70
     1
  9
$MEASUREMENT
 70
     1
  9
$CELWEIGHT
370
    -1
  9
$ENDCAPS
280
     0
  9
$JOINSTYLE
280
     0
  9
$LWDISPLAY
290
     0
  9
$INSUNITS
 70
     4
  9
$HYPERLINKBASE
  1

  9
$STYLESHEET
  1

  9
$XEDIT
290
     1
  9
$CEPSNTYPE
380
     0
  9
$PSTYLEMODE
290
     1
  9
$FINGERPRINTGUID
  2
{BB5E19E0-EADF-11D4-80D1-0040F65471FF}
  9
$VERSIONGUID
  2
{09C808EE-5551-4360-BBBF-B5AFF827FC02}
  9
$EXTNAMES
290
     1
  9
$PSVPSCALE
 40
0.0
  9
$OLESTARTUP
290
     0
  0
ENDSEC
  0
SECTION
  2
CLASSES
  0
CLASS
  1
ACDBDICTIONARYWDFLT
  2
AcDbDictionaryWithDefault
  3
ObjectDBX Classes
 90
        0
280
     0
281
     0
  0
CLASS
  1
ACDBPLACEHOLDER
  2
AcDbPlaceHolder
  3
ObjectDBX Classes
 90
        0
280
     0
281
     0
  0
CLASS
  1
LAYOUT
  2
AcDbLayout
  3
ObjectDBX Classes
 90
        0
280
     0
281
     0
  0
CLASS
  1
DICTIONARYVAR
  2
AcDbDictionaryVar
  3
ObjectDBX Classes
 90
        0
280
     0
281
     0
  0
CLASS
  1
SORTENTSTABLE
  2
AcDbSortentsTable
  3
ObjectDBX Classes
 90
        0
280
     0
281
     0
  0
CLASS
  1
TABLESTYLE
  2
AcDbTableStyle
  3
ObjectDBX Classes
 90
     2047
280
     0
281
     0
  0
ENDSEC
  0
SECTION
  2
TABLES
  0
TABLE
  2
VPORT
  5
114
330
0
100
AcDbSymbolTable
 70
     3
  0
VPORT
  5
2E1
330
114
100
AcDbSymbolTableRecord
100
AcDbViewportTableRecord
  2
*Active
 70
     0
 10
0.0
 20
0.0
 11
1.0
 21
1.0
 12
39.94979907065573
 22
41.39647656193318
 13
0.0
 23
0.0
 14
0.1
 24
0.1
 15
10.0
 25
10.0
 16
0.0
 26
0.0
 36
1.0
 17
0.0
 27
0.0
 37
0.0
 40
109.6647218489485
 41
1.569095477386934
 42
50.0
 43
0.0
 44
0.0
 50
0.0
 51
0.0
 71
     0
 72
   100
 73
     1
 74
     2
 75
     1
 76
     0
 77
     0
 78
     0
281
     0
 65
     1
110
0.0
120
0.0
130
0.0
111
1.0
121
0.0
131
0.0
112
0.0
122
1.0
132
0.0
 79
     0
146
0.0
  0
ENDTAB
  0
TABLE
  2
LTYPE
  5
10F
330
0
100
AcDbSymbolTable
 70
     1
  0
LTYPE
  5
110
330
10F
100
AcDbSymbolTableRecord
100
AcDbLinetypeTableRecord
  2
ByBlock
 70
     0
  3

 72
    65
 73
     0
 40
0.0
  0
LTYPE
  5
111
330
10F
100
AcDbSymbolTableRecord
100
AcDbLinetypeTableRecord
  2
ByLayer
 70
     0
  3

 72
    65
 73
     0
 40
0.0
  0
LTYPE
  5
A
330
10F
100
AcDbSymbolTableRecord
100
AcDbLinetypeTableRecord
  2
Continuous
 70
     0
  3
Solid line
 72
    65
 73
     0
 40
0.0
  0
ENDTAB
  0
TABLE
  2
LAYER
  5
12
102
{ACAD_XDICTIONARY
360
13
102
}
330
0
100
AcDbSymbolTable
 70
     7
  0
LAYER
  5
6
330
12
100
AcDbSymbolTableRecord
100
AcDbLayerTableRecord
  2
0
 70
     0
 62
     7
  6
Continuous
370
    -3
390
7
  0
LAYER
  5
12A
330
12
100
AcDbSymbolTableRecord
100
AcDbLayerTableRecord
  2
raam
 70
     0
 62
     2
  6
Continuous
370
    -3
390
7
  0
LAYER
  5
120
330
12
100
AcDbSymbolTableRecord
100
AcDbLayerTableRecord
  2
graveren
 70
     0
 62
     5
  6
Continuous
370
    -3
390
7
  0
LAYER
  5
123
330
12
100
AcDbSymbolTableRecord
100
AcDbLayerTableRecord
  2
gevel
 70
     0
 62
     4
  6
Continuous
370
    -3
390
7
  0
LAYER
  5
168
330
12
100
AcDbSymbolTableRecord
100
AcDbLayerTableRecord
  2
bouwlaag-dak
 70
     0
 62
     3
  6
Continuous
370
    -3
390
7
  0
LAYER
  5
169
330
12
100
AcDbSymbolTableRecord
100
AcDbLayerTableRecord
  2
hulp
 70
     0
 62
     1
  6
Continuous
370
    -3
390
7
  0
LAYER
  5
172
330
12
100
AcDbSymbolTableRecord
100
AcDbLayerTableRecord
  2
bouwlaag-2
 70
     0
 62
     7
  6
Continuous
370
    -3
390
7
  0
ENDTAB
  0
TABLE
  2
STYLE
  5
10C
330
0
100
AcDbSymbolTable
 70
     1
  0
STYLE
  5
10D
330
10C
100
AcDbSymbolTableRecord
100
AcDbTextStyleTableRecord
  2
Standard
 70
     0
 40
5.0
 41
1.0
 50
0.0
 71
     0
 42
5.0
  3
swissk.ttf
  4

1001
ACAD
1000
Swis721 Blk BT
1071
       34
  0
ENDTAB
  0
TABLE
  2
VIEW
  5
112
330
0
100
AcDbSymbolTable
 70
     0
  0
ENDTAB
  0
TABLE
  2
UCS
  5
113
330
0
100
AcDbSymbolTable
 70
     0
  0
ENDTAB
  0
TABLE
  2
APPID
  5
116
330
0
100
AcDbSymbolTable
 70
     4
  0
APPID
  5
117
330
116
100
AcDbSymbolTableRecord
100
AcDbRegAppTableRecord
  2
ACAD
 70
     0
  0
APPID
  5
195
330
116
100
AcDbSymbolTableRecord
100
AcDbRegAppTableRecord
  2
ACAD_EXEMPT_FROM_CAD_STANDARDS
 70
     0
  0
APPID
  5
2AB
330
116
100
AcDbSymbolTableRecord
100
AcDbRegAppTableRecord
  2
AcAecLayerStandard
 70
     0
  0
APPID
  5
2C7
330
116
100
AcDbSymbolTableRecord
100
AcDbRegAppTableRecord
  2
ACAD_PSEXT
 70
     0
  0
ENDTAB
  0
TABLE
  2
DIMSTYLE
  5
118
330
0
100
AcDbSymbolTable
 70
     1
100
AcDbDimStyleTable
 71
     1
340
119
  0
DIMSTYLE
105
119
330
118
100
AcDbSymbolTableRecord
100
AcDbDimStyleTableRecord
  2
ISO-25
 70
     0
 41
2.5
 42
0.625
 43
3.75
 44
1.25
 73
     0
 74
     0
 77
     1
 78
     8
140
2.5
141
2.5
143
0.03937007874016
147
0.625
171
     3
172
     1
271
     2
272
     2
274
     3
278
    44
283
     0
284
     8
340
10D
  0
ENDTAB
  0
TABLE
  2
BLOCK_RECORD
  5
1
330
0
100
AcDbSymbolTable
 70
     0
  0
BLOCK_RECORD
  5
2
102
{ACAD_XDICTIONARY
360
3
102
}
330
1
100
AcDbSymbolTableRecord
100
AcDbBlockTableRecord
  2
*Model_Space
340
C
  0
BLOCK_RECORD
  5
E
330
1
100
AcDbSymbolTableRecord
100
AcDbBlockTableRecord
  2
*Paper_Space
340
11
  0
ENDTAB
  0
ENDSEC
  0
SECTION
  2
BLOCKS
  0
BLOCK
  5
5
330
2
100
AcDbEntity
  8
0
100
AcDbBlockBegin
  2
*Model_Space
 70
     0
 10
0.0
 20
0.0
 30
0.0
  3
*Model_Space
  1

  0
ENDBLK
  5
B
330
2
100
AcDbEntity
  8
0
100
AcDbBlockEnd
  0
BLOCK
  5
F
330
E
100
AcDbEntity
 67
     1
  8
0
100
AcDbBlockBegin
  2
*Paper_Space
 70
     0
 10
0.0
 20
0.0
 30
0.0
  3
*Paper_Space
  1

  0
ENDBLK
  5
10
330
E
100
AcDbEntity
 67
     1
  8
0
100
AcDbBlockEnd
  0
ENDSEC
  0
SECTION
  2
ENTITIES
  0
LWPOLYLINE
  5
262
330
2
100
AcDbEntity
  8
gevel
100
AcDbPolyline
 90
        8
 70
     1
 43
0.0
 10
76.52189062730727
 20
48.65540020762456
 10
63.66188842533293
 20
48.65540020762456
 10
63.66188544214324
 20
40.19834710885222
 10
40.5218936104967
 20
40.19834710885236
 10
40.52189063150592
 20
48.65540020762425
 10
27.66188837661969
 20
48.65540020762459
 10
27.66187051231111
 20
28.65540020025269
 10
76.52189062730727
 20
28.65540020762457
  0
LWPOLYLINE
  5
263
330
2
100
AcDbEntity
  8
gevel
100
AcDbPolyline
 90
        4
 70
     1
 43
0.0
 10
35.82189063150597
 20
59.35540020762424
 10
35.82189063150594
 20
50.89834710885224
 10
58.96188544214325
 20
50.8983471088522
 10
58.96188544214325
 20
59.35540020762421
  0
LWPOLYLINE
  5
264
330
2
100
AcDbEntity
  8
raam
100
AcDbPolyline
 90
        4
 70
     0
 43
0.0
 10
39.04096066771592
 20
28.65540020025394
 10
39.04096066771592
 20
33.53700819713588
 10
37.14096066771447
 20
33.53700819713588
 10
37.14096066771447
 20
28.65540020025394
  0
LWPOLYLINE
  5
265
330
2
100
AcDbEntity
  8
graveren
100
AcDbPolyline
 90
        4
 70
     0
 43
0.0
 10
36.54188462426748
 20
28.65540020025394
 10
36.54188462426748
 20
34.1353974810426
 10
39.64187646663879
 20
34.1353974810426
 10
39.64187646663879
 20
28.65540020025394
  0
LWPOLYLINE
  5
266
330
2
100
AcDbEntity
  8
raam
100
AcDbPolyline
 90
        4
 70
     0
 43
0.0
 10
43.04096066771592
 20
28.65540020025394
 10
43.04096066771592
 20
33.53700819713588
 10
41.14096066771447
 20
33.53700819713588
 10
41.14096066771447
 20
28.65540020025394
  0
LWPOLYLINE
  5
267
330
2
100
AcDbEntity
  8
graveren
100
AcDbPolyline
 90
        4
 70
     0
 43
0.0
 10
40.54188462426748
 20
28.65540020025394
 10
40.54188462426748
 20
34.1353974810426
 10
43.64187646663879
 20
34.1353974810426
 10
43.64187646663879
 20
28.65540020025394
  0
LWPOLYLINE
  5
268
330
2
100
AcDbEntity
  8
raam
100
AcDbPolyline
 90
        4
 70
     0
 43
0.0
 10
63.04096071642894
 20
28.65540020025394
 10
63.04096071642894
 20
33.53700819713588
 10
61.14096071642748
 20
33.53700819713588
 10
61.14096071642748
 20
28.65540020025394
  0
LWPOLYLINE
  5
269
330
2
100
AcDbEntity
  8
graveren
100
AcDbPolyline
 90
        4
 70
     0
 43
0.0
 10
60.5418846729805
 20
28.65540020025394
 10
60.5418846729805
 20
34.1353974810426
 10
63.64187651535181
 20
34.13539748104258
 10
63.64187651535181
 20
28.65540020025391
  0
LWPOLYLINE
  5
26A
330
2
100
AcDbEntity
  8
raam
100
AcDbPolyline
 90
        4
 70
     0
 43
0.0
 10
67.04096071642894
 20
28.65540020025391
 10
67.04096071642894
 20
33.53700819713585
 10
65.14096071642748
 20
33.53700819713585
 10
65.14096071642748
 20
28.65540020025391
  0
LWPOLYLINE
  5
26B
330
2
100
AcDbEntity
  8
graveren
100
AcDbPolyline
 90
        4
 70
     0
 43
0.0
 10
64.5418846729805
 20
28.65540020025391
 10
64.5418846729805
 20
34.13539748104258
 10
67.64187651535181
 20
34.13539748104258
 10
67.64187651535181
 20
28.65540020025391
  0
LWPOLYLINE
  5
26C
330
2
100
AcDbEntity
  8
raam
100
AcDbPolyline
 90
        4
 70
     1
 43
0.0
 10
29.14218534817576
 20
29.93700819714722
 10
31.04218534817722
 20
29.93700819714722
 10
31.04218534817722
 20
33.53700819713849
 10
29.14218534817576
 20
33.53700819713849
  0
LWPOLYLINE
  5
26D
330
2
100
AcDbEntity
  8
raam
100
AcDbPolyline
 90
        4
 70
     1
 43
0.0
 10
72.14217646473471
 20
10.93700819714722
 10
74.04217646473617
 20
10.93700819714722
 10
74.04217646473617
 20
14.53700819713849
 10
72.14217646473471
 20
14.53700819713849
  0
LWPOLYLINE
  5
26E
330
2
100
AcDbEntity
  8
raam
100
AcDbPolyline
 90
        4
 70
     1
 43
0.0
 10
33.14218534817576
 20
29.93700819714722
 10
35.04218534817721
 20
29.93700819714722
 10
35.04218534817721
 20
33.53700819713849
 10
33.14218534817576
 20
33.53700819713849
  0
LWPOLYLINE
  5
26F
330
2
100
AcDbEntity
  8
raam
100
AcDbPolyline
 90
        4
 70
     1
 43
0.0
 10
30.14218534817576
 20
35.93700819714722
 10
32.04218534817722
 20
35.93700819714722
 10
32.04218534817722
 20
39.53700819713849
 10
30.14218534817576
 20
39.53700819713849
  0
LWPOLYLINE
  5
270
330
2
100
AcDbEntity
  8
raam
100
AcDbPolyline
 90
        4
 70
     1
 43
0.0
 10
29.14219428033005
 20
42.14857179253082
 10
31.0421942803315
 20
42.14857179253082
 10
31.0421942803315
 20
45.7485717925221
 10
29.14219428033005
 20
45.7485717925221
  0
LWPOLYLINE
  5
271
330
2
100
AcDbEntity
  8
raam
100
AcDbPolyline
 90
        4
 70
     1
 43
0.0
 10
33.14219428033005
 20
42.14857179253082
 10
35.0421942803315
 20
42.14857179253082
 10
35.0421942803315
 20
45.7485717925221
 10
33.14219428033005
 20
45.7485717925221
  0
LWPOLYLINE
  5
272
330
2
100
AcDbEntity
  8
raam
100
AcDbPolyline
 90
        4
 70
     1
 43
0.0
 10
36.14218534817576
 20
35.93700819714722
 10
38.04218534817721
 20
35.93700819714722
 10
38.04218534817721
 20
39.53700819713849
 10
36.14218534817576
 20
39.53700819713849
  0
LWPOLYLINE
  5
273
330
2
100
AcDbEntity
  8
raam
100
AcDbPolyline
 90
        4
 70
     1
 43
0.0
 10
42.14218534817575
 20
35.93700819714722
 10
44.04218534817721
 20
35.93700819714722
 10
44.04218534817721
 20
39.53700819713849
 10
42.14218534817575
 20
39.53700819713849
  0
LWPOLYLINE
  5
274
330
2
100
AcDbEntity
  8
raam
100
AcDbPolyline
 90
        4
 70
     1
 43
0.0
 10
48.14218534817576
 20
35.93700819714722
 10
50.04218534817721
 20
35.93700819714722
 10
50.04218534817721
 20
39.53700819713849
 10
48.14218534817576
 20
39.53700819713849
  0
LWPOLYLINE
  5
275
330
2
100
AcDbEntity
  8
raam
100
AcDbPolyline
 90
        4
 70
     1
 43
0.0
 10
45.14218534817575
 20
29.93700819714722
 10
47.04218534817721
 20
29.93700819714722
 10
47.04218534817721
 20
33.53700819713849
 10
45.14218534817575
 20
33.53700819713849
  0
LWPOLYLINE
  5
276
330
2
100
AcDbEntity
  8
raam
100
AcDbPolyline
 90
        4
 70
     1
 43
0.0
 10
49.14218534817575
 20
29.93700819714722
 10
51.04218534817724
 20
29.93700819714722
 10
51.04218534817724
 20
33.53700819713849
 10
49.14218534817575
 20
33.53700819713849
  0
LWPOLYLINE
  5
277
330
2
100
AcDbEntity
  8
raam
100
AcDbPolyline
 90
        4
 70
     1
 43
0.0
 10
53.14218539688901
 20
29.93700819714722
 10
55.04218539689046
 20
29.93700819714722
 10
55.04218539689046
 20
33.53700819713849
 10
53.14218539688901
 20
33.53700819713849
  0
LWPOLYLINE
  5
278
330
2
100
AcDbEntity
  8
raam
100
AcDbPolyline
 90
        4
 70
     1
 43
0.0
 10
57.142185396889
 20
29.93700819714722
 10
59.04218539689046
 20
29.93700819714722
 10
59.04218539689046
 20
33.53700819713849
 10
57.142185396889
 20
33.53700819713849
  0
LWPOLYLINE
  5
279
330
2
100
AcDbEntity
  8
raam
100
AcDbPolyline
 90
        4
 70
     1
 43
0.0
 10
54.142185396889
 20
35.93700819714722
 10
56.04218539689046
 20
35.93700819714722
 10
56.04218539689046
 20
39.53700819713849
 10
54.142185396889
 20
39.53700819713849
  0
LWPOLYLINE
  5
27A
330
2
100
AcDbEntity
  8
raam
100
AcDbPolyline
 90
        4
 70
     1
 43
0.0
 10
60.14218539688901
 20
35.93700819714722
 10
62.04218539689046
 20
35.93700819714722
 10
62.04218539689046
 20
39.53700819713849
 10
60.14218539688901
 20
39.53700819713849
  0
LWPOLYLINE
  5
27B
330
2
100
AcDbEntity
  8
raam
100
AcDbPolyline
 90
        4
 70
     1
 43
0.0
 10
66.142185396889
 20
35.93700819714719
 10
68.04218539689045
 20
35.93700819714719
 10
68.04218539689045
 20
39.53700819713846
 10
66.142185396889
 20
39.53700819713846
  0
LWPOLYLINE
  5
27C
330
2
100
AcDbEntity
  8
raam
100
AcDbPolyline
 90
        4
 70
     1
 43
0.0
 10
72.142185396889
 20
35.93700819714719
 10
74.04218539689046
 20
35.93700819714719
 10
74.04218539689046
 20
39.53700819713846
 10
72.142185396889
 20
39.53700819713846
  0
LWPOLYLINE
  5
27D
330
2
100
AcDbEntity
  8
raam
100
AcDbPolyline
 90
        4
 70
     1
 43
0.0
 10
69.14219432904329
 20
42.1485717925308
 10
71.04219432904475
 20
42.1485717925308
 10
71.04219432904475
 20
45.74857179252207
 10
69.14219432904329
 20
45.74857179252207
  0
LWPOLYLINE
  5
27E
330
2
100
AcDbEntity
  8
raam
100
AcDbPolyline
 90
        4
 70
     1
 43
0.0
 10
73.14219432904329
 20
42.1485717925308
 10
75.04219432904474
 20
42.1485717925308
 10
75.04219432904474
 20
45.74857179252207
 10
73.14219432904329
 20
45.74857179252207
  0
LWPOLYLINE
  5
27F
330
2
100
AcDbEntity
  8
raam
100
AcDbPolyline
 90
        4
 70
     1
 43
0.0
 10
73.14218539688901
 20
29.9370081971472
 10
75.04218539689046
 20
29.9370081971472
 10
75.04218539689046
 20
33.53700819713846
 10
73.14218539688901
 20
33.53700819713846
  0
LWPOLYLINE
  5
280
330
2
100
AcDbEntity
  8
raam
100
AcDbPolyline
 90
        4
 70
     1
 43
0.0
 10
69.142185396889
 20
29.9370081971472
 10
71.04218539689046
 20
29.9370081971472
 10
71.04218539689046
 20
33.53700819713846
 10
69.142185396889
 20
33.53700819713846
  0
LWPOLYLINE
  5
281
330
2
100
AcDbEntity
  8
raam
100
AcDbPolyline
 90
        4
 70
     1
 43
0.0
 10
54.54219432904981
 20
53.01627955375817
 10
56.24219432905144
 20
53.01627955375817
 10
56.24219432905144
 20
55.21627955374945
 10
54.54219432904981
 20
55.21627955374945
  0
LWPOLYLINE
  5
282
330
2
100
AcDbEntity
  8
raam
100
AcDbPolyline
 90
        4
 70
     1
 43
0.0
 10
50.54219432904344
 20
53.01627955375407
 10
52.24219432904508
 20
53.01627955375407
 10
52.24219432904508
 20
55.21627955374537
 10
50.54219432904344
 20
55.21627955374537
  0
LWPOLYLINE
  5
283
330
2
100
AcDbEntity
  8
raam
100
AcDbPolyline
 90
        4
 70
     1
 43
0.0
 10
42.54219432904932
 20
53.01627955375817
 10
44.24219432905096
 20
53.01627955375817
 10
44.24219432905096
 20
55.21627955374945
 10
42.54219432904932
 20
55.21627955374945
  0
LWPOLYLINE
  5
284
330
2
100
AcDbEntity
  8
raam
100
AcDbPolyline
 90
        4
 70
     1
 43
0.0
 10
38.54219432904296
 20
53.01627955375407
 10
40.24219432904459
 20
53.01627955375407
 10
40.24219432904459
 20
55.21627955374537
 10
38.54219432904296
 20
55.21627955374537
  0
LWPOLYLINE
  5
285
330
2
100
AcDbEntity
  8
raam
100
AcDbPolyline
 90
        4
 70
     1
 43
0.0
 10
31.24217641602138
 20
18.50471595837034
 10
32.94217641602302
 20
18.50471595837034
 10
32.94217641602302
 20
20.70471595836163
 10
31.24217641602138
 20
20.70471595836163
  0
LWPOLYLINE
  5
286
330
2
100
AcDbEntity
  8
raam
100
AcDbPolyline
 90
        4
 70
     1
 43
0.0
 10
35.24217641602775
 20
18.50471595836625
 10
36.94217641602941
 20
18.50471595836625
 10
36.94217641602941
 20
20.70471595835754
 10
35.24217641602775
 20
20.70471595835754
  0
LWPOLYLINE
  5
287
330
2
100
AcDbEntity
  8
raam
100
AcDbPolyline
 90
        4
 70
     1
 43
0.0
 10
43.24217641602141
 20
18.50471595837034
 10
44.94217641602304
 20
18.50471595837034
 10
44.94217641602304
 20
20.70471595836163
 10
43.24217641602141
 20
20.70471595836163
  0
LWPOLYLINE
  5
288
330
2
100
AcDbEntity
  8
raam
100
AcDbPolyline
 90
        4
 70
     1
 43
0.0
 10
47.24217641602777
 20
18.50471595836625
 10
48.94217641602941
 20
18.50471595836625
 10
48.94217641602941
 20
20.70471595835754
 10
47.24217641602777
 20
20.70471595835754
  0
LWPOLYLINE
  5
289
330
2
100
AcDbEntity
  8
raam
100
AcDbPolyline
 90
        4
 70
     1
 43
0.0
 10
55.24217641602186
 20
18.50471595837034
 10
56.94217641602349
 20
18.50471595837034
 10
56.94217641602349
 20
20.70471595836163
 10
55.24217641602186
 20
20.70471595836163
  0
LWPOLYLINE
  5
28A
330
2
100
AcDbEntity
  8
raam
100
AcDbPolyline
 90
        4
 70
     1
 43
0.0
 10
59.24217641602822
 20
18.50471595836625
 10
60.94217641602987
 20
18.50471595836625
 10
60.94217641602987
 20
20.70471595835754
 10
59.24217641602822
 20
20.70471595835754
  0
LWPOLYLINE
  5
28B
330
2
100
AcDbEntity
  8
raam
100
AcDbPolyline
 90
        4
 70
     1
 43
0.0
 10
67.24217646473485
 20
18.50471595837034
 10
68.94217646473649
 20
18.50471595837034
 10
68.94217646473649
 20
20.70471595836163
 10
67.24217646473485
 20
20.70471595836163
  0
LWPOLYLINE
  5
28C
330
2
100
AcDbEntity
  8
raam
100
AcDbPolyline
 90
        4
 70
     1
 43
0.0
 10
71.24217646474122
 20
18.50471595836625
 10
72.94217646474286
 20
18.50471595836625
 10
72.94217646474286
 20
20.70471595835754
 10
71.24217646474122
 20
20.70471595835754
  0
LWPOLYLINE
  5
28D
330
2
100
AcDbEntity
  8
raam
100
AcDbPolyline
 90
        4
 70
     1
 43
0.0
 10
66.14217646473472
 20
10.93700819714722
 10
68.04217646473617
 20
10.93700819714722
 10
68.04217646473617
 20
14.53700819713849
 10
66.14217646473472
 20
14.53700819713849
  0
LWPOLYLINE
  5
28E
330
2
100
AcDbEntity
  8
raam
100
AcDbPolyline
 90
        4
 70
     1
 43
0.0
 10
60.14217646473472
 20
10.93700819714722
 10
62.04217646473617
 20
10.93700819714722
 10
62.04217646473617
 20
14.53700819713849
 10
60.14217646473472
 20
14.53700819713849
  0
LWPOLYLINE
  5
28F
330
2
100
AcDbEntity
  8
raam
100
AcDbPolyline
 90
        4
 70
     1
 43
0.0
 10
54.14217646473471
 20
10.93700819714722
 10
56.04217646473617
 20
10.93700819714722
 10
56.04217646473617
 20
14.53700819713849
 10
54.14217646473471
 20
14.53700819713849
  0
LWPOLYLINE
  5
290
330
2
100
AcDbEntity
  8
raam
100
AcDbPolyline
 90
        4
 70
     1
 43
0.0
 10
48.1421764160215
 20
10.93700819714722
 10
50.04217641602295
 20
10.93700819714722
 10
50.04217641602295
 20
14.53700819713849
 10
48.1421764160215
 20
14.53700819713849
  0
LWPOLYLINE
  5
291
330
2
100
AcDbEntity
  8
raam
100
AcDbPolyline
 90
        4
 70
     1
 43
0.0
 10
42.14217641602149
 20
10.93700819714722
 10
44.04217641602295
 20
10.93700819714722
 10
44.04217641602295
 20
14.53700819713849
 10
42.14217641602149
 20
14.53700819713849
  0
LWPOLYLINE
  5
292
330
2
100
AcDbEntity
  8
raam
100
AcDbPolyline
 90
        4
 70
     1
 43
0.0
 10
36.1421764160215
 20
10.93700819714722
 10
38.04217641602296
 20
10.93700819714722
 10
38.04217641602296
 20
14.53700819713849
 10
36.1421764160215
 20
14.53700819713849
  0
LWPOLYLINE
  5
293
330
2
100
AcDbEntity
  8
raam
100
AcDbPolyline
 90
        4
 70
     1
 43
0.0
 10
30.14217641602147
 20
10.93700819714722
 10
32.04217641602293
 20
10.93700819714722
 10
32.04217641602293
 20
14.53700819713849
 10
30.14217641602147
 20
14.53700819713849
  0
LWPOLYLINE
  5
294
330
2
100
AcDbEntity
  8
raam
100
AcDbPolyline
 90
        4
 70
     0
 43
0.0
 10
30.4418716132983
 20
3.655400200252685
 10
30.4418716132983
 20
8.535400200252681
 10
37.74186345567173
 20
8.535400200252681
 10
37.74186345567173
 20
3.655400200252685
  0
LWPOLYLINE
  5
295
330
2
100
AcDbEntity
  8
raam
100
AcDbPolyline
 90
        4
 70
     0
 43
0.0
 10
42.44187161329833
 20
3.655400200252685
 10
42.44187161329833
 20
8.535400200252681
 10
49.74186345567173
 20
8.535400200252681
 10
49.74186345567173
 20
3.655400200252685
  0
LWPOLYLINE
  5
296
330
2
100
AcDbEntity
  8
raam
100
AcDbPolyline
 90
        4
 70
     0
 43
0.0
 10
54.44187161329833
 20
3.655400200252685
 10
54.44187161329833
 20
8.535400200252681
 10
61.74186345567173
 20
8.535400200252681
 10
61.74186345567173
 20
3.655400200252685
  0
LWPOLYLINE
  5
297
330
2
100
AcDbEntity
  8
raam
100
AcDbPolyline
 90
        4
 70
     0
 43
0.0
 10
66.44187161329833
 20
3.655400200252685
 10
66.44187161329833
 20
8.535400200252681
 10
73.74186345567173
 20
8.535400200252681
 10
73.74186345567173
 20
3.655400200252685
  0
LWPOLYLINE
  5
298
330
2
100
AcDbEntity
  8
raam
100
AcDbPolyline
 90
        4
 70
     1
 43
0.0
 10
8.181592629914462
 20
15.74857178515709
 10
6.281592629913006
 20
15.74857178515709
 10
6.281592629913063
 20
19.34857178514836
 10
8.181592629914518
 20
19.34857178514836
  0
LWPOLYLINE
  5
299
330
2
100
AcDbEntity
  8
raam
100
AcDbPolyline
 90
        4
 70
     1
 43
0.0
 10
8.181592629914462
 20
9.748571785157096
 10
6.281592629913006
 20
9.748571785157096
 10
6.281592629913006
 20
13.34857178514836
 10
8.181592629914462
 20
13.34857178514836
  0
LWPOLYLINE
  5
29A
330
2
100
AcDbEntity
  8
gevel
100
AcDbPolyline
 90
        4
 70
     1
 43
0.0
 10
3.801879151521234
 20
3.655400200252685
 10
22.66187051231111
 20
3.655400200252685
 10
22.66187910237585
 20
23.65540020025083
 10
3.801887741585943
 20
23.65540020025084
  0
LWPOLYLINE
  5
29B
330
2
100
AcDbEntity
  8
raam
100
AcDbPolyline
 90
        4
 70
     1
 43
0.0
 10
18.28218280411192
 20
40.74857178515709
 10
20.18218280411338
 20
40.74857178515709
 10
20.18218280411338
 20
44.34857178514836
 10
18.28218280411192
 20
44.34857178514836
  0
LWPOLYLINE
  5
29C
330
2
100
AcDbEntity
  8
raam
100
AcDbPolyline
 90
        4
 70
     1
 43
0.0
 10
18.28218280411192
 20
34.74857178515709
 10
20.18218280411338
 20
34.74857178515709
 10
20.18218280411338
 20
38.34857178514836
 10
18.28218280411192
 20
38.34857178514836
  0
LWPOLYLINE
  5
29D
330
2
100
AcDbEntity
  8
gevel
100
AcDbPolyline
 90
        4
 70
     1
 43
0.0
 10
3.801879151521234
 20
28.65540020025269
 10
22.66187051231111
 20
28.65540020025269
 10
22.66187910237579
 20
48.65540020025084
 10
3.801887741585915
 20
48.65540020025084
  0
LWPOLYLINE
  5
29E
330
2
100
AcDbEntity
  8
gevel
100
AcDbPolyline
 90
        4
 70
     1
 43
0.0
 10
76.52188169515298
 20
3.655400200252685
 10
76.52188169515298
 20
23.65540020025269
 10
27.66187051231111
 20
23.65540020025269
 10
27.66187051231111
 20
3.655400200252685
  0
LWPOLYLINE
  5
29F
330
2
100
AcDbEntity
  8
gevel
100
AcDbPolyline
 90
        4
 70
     1
 43
0.0
 10
3.700000000000017
 20
59.6554024268794
 10
16.56000220197435
 20
59.6554024268794
 10
16.56000220197435
 20
51.19540242687943
 10
3.700000000000017
 20
51.19540242687943
  0
LWPOLYLINE
  5
2A0
330
2
100
AcDbEntity
  8
gevel
100
AcDbPolyline
 90
        4
 70
     1
 43
0.0
 10
19.5618791023758
 20
51.19540242687943
 10
32.42188130435017
 20
51.19540242687943
 10
32.42188130435017
 20
59.6554024268794
 10
19.5618791023758
 20
59.6554024268794
  0
LWPOLYLINE
  5
2A1
330
2
100
AcDbEntity
  8
bouwlaag-2
100
AcDbPolyline
 90
        4
 70
     1
 43
0.0
 10
76.11540240959897
 20
74.27810936849403
 10
63.25540020762463
 20
74.27810936849403
 10
63.25540020762457
 20
51.13811455785674
 10
76.11540240959891
 20
51.13811455785674
  0
LWPOLYLINE
  5
2A2
330
2
100
AcDbEntity
  8
bouwlaag-dak
100
AcDbPolyline
 90
        8
 70
     1
 43
0.0
 10
39.66188837242103
 20
80.31540015847916
 10
52.52188836906012
 20
80.31540015847916
 10
52.52189062730647
 20
61.4554002076246
 10
3.661888376619685
 20
61.4554002076246
 10
3.661888376619714
 20
80.31540015847916
 10
16.52189356178374
 20
80.31540015847916
 10
16.52189356178374
 20
67.45539795650483
 10
39.66188837242103
 20
67.45539795650483
  0
LWPOLYLINE
  5
2A3
330
2
100
AcDbEntity
  8
raam
100
AcDbPolyline
 90
        4
 70
     0
 43
0.0
 10
9.060002201972935
 20
51.19540242687943
 10
9.060002201972935
 20
56.07701042376136
 10
10.96000220197439
 20
56.07701042376136
 10
10.96000220197439
 20
51.19540242687943
  0
LWPOLYLINE
  5
2A4
330
2
100
AcDbEntity
  8
raam
100
AcDbPolyline
 90
        4
 70
     0
 43
0.0
 10
27.06187910237725
 20
51.19539726997307
 10
27.06187910237725
 20
56.07700526685501
 10
25.16187910237579
 20
56.07700526685501
 10
25.16187910237579
 20
51.19539726997307
  0
LWPOLYLINE
  5
2A5
330
2
100
AcDbEntity
  8
hulp
100
AcDbPolyline
 90
        4
 70
     1
 43
0.0
 10
0.0
 20
0.0
 10
79.90000000000001
 20
0.0
 10
79.90000000000001
 20
82.79999999999999
 10
0.0
 20
82.79999999999999
  0
ENDSEC
  0
SECTION
  2
OBJECTS
  0
DICTIONARY
  5
9
330
0
100
AcDbDictionary
281
     1
  3
ACAD_COLOR
350
18E
  3
ACAD_GROUP
350
11B
  3
ACAD_LAYOUT
350
D
  3
ACAD_MATERIAL
350
18D
  3
ACAD_MLINESTYLE
350
11C
  3
ACAD_PLOTSETTINGS
350
11D
  3
ACAD_PLOTSTYLENAME
350
8
  3
ACAD_TABLESTYLE
350
18F
  3
ACDBHEADERROUNDTRIPXREC
350
2E2
  3
AcDbVariableDictionary
350
1A0
  0
DICTIONARY
  5
13
330
12
100
AcDbDictionary
280
     1
281
     1
  3
ACAD_LAYERFILTERS
360
2B8
  3
ACAD_LAYERSTATES
360
10B
  3
ACLYDICTIONARY
360
2B7
  0
DICTIONARY
  5
3
330
2
100
AcDbDictionary
280
     1
281
     1
  3
ACAD_SORTENTS
360
4
  0
DICTIONARY
  5
18E
102
{ACAD_REACTORS
330
9
102
}
330
9
100
AcDbDictionary
281
     1
  0
DICTIONARY
  5
11B
102
{ACAD_REACTORS
330
9
102
}
330
9
100
AcDbDictionary
281
     1
  0
DICTIONARY
  5
D
102
{ACAD_REACTORS
330
9
102
}
330
9
100
AcDbDictionary
281
     1
  3
Layout1
350
11
  3
Model
350
C
  0
DICTIONARY
  5
18D
102
{ACAD_REACTORS
330
9
102
}
330
9
100
AcDbDictionary
281
     1
  0
DICTIONARY
  5
11C
102
{ACAD_REACTORS
330
9
102
}
330
9
100
AcDbDictionary
281
     1
  3
Standard
350
11E
  0
DICTIONARY
  5
11D
102
{ACAD_REACTORS
330
9
102
}
330
9
100
AcDbDictionary
281
     1
  0
ACDBDICTIONARYWDFLT
  5
8
102
{ACAD_REACTORS
330
9
102
}
330
9
100
AcDbDictionary
281
     1
  3
Normal
350
7
100
AcDbDictionaryWithDefault
340
7
  0
DICTIONARY
  5
18F
102
{ACAD_REACTORS
330
9
102
}
330
9
100
AcDbDictionary
281
     1
  3
Standard
350
190
  0
DICTIONARY
  5
2E2
102
{ACAD_REACTORS
330
9
102
}
330
9
100
AcDbDictionary
281
     1
  0
DICTIONARY
  5
1A0
102
{ACAD_REACTORS
330
9
102
}
330
9
100
AcDbDictionary
281
     1
  3
CTABLESTYLE
350
1A1
  3
DIMASSOC
350
2DF
  3
PROJECTNAME
350
2E0
  0
DICTIONARY
  5
2B8
102
{ACAD_REACTORS
330
13
102
}
330
13
100
AcDbDictionary
281
     1
  0
DICTIONARY
  5
10B
102
{ACAD_REACTORS
330
13
102
}
330
13
100
AcDbDictionary
281
     1
  0
DICTIONARY
  5
2B7
102
{ACAD_REACTORS
330
13
102
}
330
13
100
AcDbDictionary
281
     1
1001
ACAD
1000
<All
  0
SORTENTSTABLE
  5
4
102
{ACAD_REACTORS
330
3
102
}
330
3
100
AcDbSortentsTable
330
2
  0
LAYOUT
  5
11
102
{ACAD_XDICTIONARY
360
2E5
102
}
102
{ACAD_REACTORS
330
D
102
}
330
D
100
AcDbPlotSettings
  1

  2
HP LaserJet IIIP
  4
A4
  6

 40
6.297083377838134
 41
5.027085304260253
 42
5.70440673828125
 43
5.027069091796875
 44
210.0579986572266
 45
296.9259948730469
 46
0.0
 47
0.0
 48
0.0
 49
0.0
140
0.0
141
0.0
142
1.0
143
1.0
 70
   688
 72
     1
 73
     1
 74
     5
  7
Default R14 pen assignments.ctb
 75
    16
147
1.0
148
0.0
149
0.0
100
AcDbLayout
  1
Layout1
 70
     1
 71
     1
 10
-5.027069091796875
 20
-6.297083377838134
 11
291.89892578125
 21
203.7609152793884
 12
0.0
 22
0.0
 32
0.0
 14
28.68718404769897
 24
19.80565085411072
 34
0.0
 15
258.1846564292908
 25
178.2508576869964
 35
0.0
146
0.0
 13
0.0
 23
0.0
 33
0.0
 16
1.0
 26
0.0
 36
0.0
 17
0.0
 27
1.0
 37
0.0
 76
     0
330
E
  0
LAYOUT
  5
C
102
{ACAD_XDICTIONARY
360
2E3
102
}
102
{ACAD_REACTORS
330
D
102
}
330
D
100
AcDbPlotSettings
  1

  2
Adobe PDF
  4
A4
  6

 40
3.174999952316284
 41
3.174999952316284
 42
3.175003051757812
 43
3.17498779296875
 44
209.9098358154297
 45
297.0318298339844
 46
0.0
 47
41.67812848728217
 48
-8.700000000000001
 49
-8.8
140
88.60000000000001
141
90.30000000000001
142
1.0
143
0.4779921394913435
 70
 11924
 72
     1
 73
     0
 74
     4
  7

 75
     0
147
2.092084612655247
148
8.700000000000001
149
8.8
100
AcDbLayout
  1
Model
 70
     1
 71
     0
 10
0.0
 20
0.0
 11
12.0
 21
9.0
 12
0.0
 22
0.0
 32
0.0
 14
0.0
 24
0.0
 34
0.0
 15
0.0
 25
0.0
 35
0.0
146
0.0
 13
0.0
 23
0.0
 33
0.0
 16
1.0
 26
0.0
 36
0.0
 17
0.0
 27
1.0
 37
0.0
 76
     0
330
2
1001
ACAD_PSEXT
1000
Adobe PDF
1000
Adobe PDF Converter
1000
Mijn documenten
1000
Creates Adobe PDF
1070
     0
  0
MLINESTYLE
  5
11E
102
{ACAD_REACTORS
330
11C
102
}
330
11C
100
AcDbMlineStyle
  2
STANDARD
 70
     0
  3

 62
   256
 51
90.0
 52
90.0
 71
     2
 49
0.5
 62
   256
  6
BYLAYER
 49
-0.5
 62
   256
  6
BYLAYER
  0
ACDBPLACEHOLDER
  5
7
102
{ACAD_REACTORS
330
8
102
}
330
8
  0
TABLESTYLE
  5
190
102
{ACAD_REACTORS
330
18F
102
}
330
18F
100
AcDbTableStyle
  3
Standard
 70
     0
 71
     0
 40
1.5
 41
1.5
280
     0
281
     0
  7
Standard
140
4.5
170
     2
 62
     0
 63
     7
283
     0
274
    -2
284
     1
 64
     0
275
    -2
285
     1
 65
     0
276
    -2
286
     1
 66
     0
277
    -2
287
     1
 67
     0
278
    -2
288
     1
 68
     0
279
    -2
289
     1
 69
     0
  7
Standard
140
6.0
170
     5
 62
     0
 63
     7
283
     0
274
    -2
284
     1
 64
     0
275
    -2
285
     1
 65
     0
276
    -2
286
     1
 66
     0
277
    -2
287
     1
 67
     0
278
    -2
288
     1
 68
     0
279
    -2
289
     1
 69
     0
  7
Standard
140
4.5
170
     5
 62
     0
 63
     7
283
     0
274
    -2
284
     1
 64
     0
275
    -2
285
     1
 65
     0
276
    -2
286
     1
 66
     0
277
    -2
287
     1
 67
     0
278
    -2
288
     1
 68
     0
279
    -2
289
     1
 69
     0
  0
DICTIONARYVAR
  5
1A1
102
{ACAD_REACTORS
330
1A0
102
}
330
1A0
100
DictionaryVariables
280
     0
  1
STANDARD
  0
DICTIONARYVAR
  5
2DF
102
{ACAD_REACTORS
330
1A0
102
}
330
1A0
100
DictionaryVariables
280
     0
  1
1
  0
DICTIONARYVAR
  5
2E0
102
{ACAD_REACTORS
330
1A0
102
}
330
1A0
100
DictionaryVariables
280
     0
  1

  0
DICTIONARY
  5
2E5
330
11
100
AcDbDictionary
280
     1
281
     1
  3
ACAD_XREC_ROUNDTRIP
360
2E6
  0
DICTIONARY
  5
2E3
330
C
100
AcDbDictionary
280
     1
281
     1
  3
ACAD_XREC_ROUNDTRIP
360
2E4
  0
XRECORD
  5
2E6
102
{ACAD_REACTORS
330
2E5
102
}
330
2E5
100
AcDbXrecord
280
     1
102
SHADEPLOT
 70
     0
102
SHADEPLOTRESLEVEL
 70
     2
102
SHADEPLOTCUSTOMDPI
 70
   300
  0
XRECORD
  5
2E4
102
{ACAD_REACTORS
330
2E3
102
}
330
2E3
100
AcDbXrecord
280
     1
102
SHADEPLOT
 70
     0
102
SHADEPLOTRESLEVEL
 70
     2
102
SHADEPLOTCUSTOMDPI
 70
   300
  0
ENDSEC
  0
EOF
